Volver a Cancionero



En tu dia ,Acorde Guitarra, Letra Tabladura, Cancionero Tuna, Cumpleaños, xx


 

En tu dia

[Tube]https://www.youtube.com/watch?v=9HfQfxoB5IY[/Tube]

Interpretan: Javier Solis, Pedro Infante, Roberto Griego, Mariachi Guadalajara

Tuna España (Don Dudo)     www.TunaEspana.com    www.TunaEspaña.es

 Autor:

Ritmo: Bolero

01 TunaEspaña Portada 4

 

Intro: 

        A                  D           A         E      A
E ---------------5--7-9-12-10---10-9-9-10--9-5-7-9--7-4-5--4-5-7-4-5-
B ------5-7-9-10-----------------------------------------------------
G --6-7--------------------------------------------------------------

A               E       A          
Celebremos con gusto señores
      E                   A
este día de placer tan dichoso
                               D 
que en tu santo te encuentres gustoso
     E                 A 
y tranquilo tu fiel corazón

             E         A 
Vive vive feliz en el mundo
        E                  A
sin que nadie perturbe tu mente
                               D
te pondremos un laurel en tu frente
      E                    A   
unas conchas y perlas del mar

        A                  D           A         E      A
E ---------------5--7-9-12-10---10-9-9-10--9-5-7-9--7-4-5--4-5-7-4-5-
B ------5-7-9-10-----------------------------------------------------
G --6-7--------------------------------------------------------------

                   E         A          
Dios bendiga este dia aventuroso
   E                      A
y bendiga la prenda que adoro
                          D
hoy los angeles cantan en coro
        E                 A
por los años que vas a cumplir

                 E          A 
Las estrellas se visten de gala
    E                    A
y la luna se llena de encanto
                               D  
al saber que hoy es día de tu santo
      E                    A 
Dios bendiga este día de placer

        A                  D           A         E      A
E ---------------5--7-9-12-10---10-9-9-10--9-5-7-9--7-4-5--4-5-7-4-5-
B ------5-7-9-10-----------------------------------------------------
G --6-7--------------------------------------------------------------

                E            A    
Solamente un recuerdo ha quedado
      E                       A      
de la infancia que al fin ya pasó
                           D
celebremos este dia tan dichoso
      E                A  
tus amigos parientes y yo

                E      A
Celebremos con gusto señores
      E                   A
este día de placer tan dichoso
                               D
que en tu santo te encuentres gustoso
     E                 A
y tranquilo tu fiel corazón

[Tube]https://www.youtube.com/watch?v=CAq4mi91h04[/Tube]

 

Tags: , , , , , ,

Comments are closed.

Volver a Cancionero